RPG-Story

Bienvenue sur RPG-Story
 
AccueilPortailCalendrierFAQRechercherS'enregistrerMembresGroupesConnexion

Partagez | 
 

 Les tablatures

Aller en bas 
AuteurMessage
Cloud
Fondateur
avatar

Masculin
Nombre de messages : 628
Age : 24
Localisation : Près de Clermont-FD
Date d'inscription : 11/04/2007

Profil de combattant
Niveau: 1
PV:
550/550  (550/550)
MP:
250/250  (250/250)

MessageSujet: Les tablatures   Sam 28 Avr - 1:37

Bon je mets ce titre a ce sujet mais bon,je ne sais pas comment faire pour introduire des tablatures format Guitare Pro donc je vais plutôt postez des sites ou vous pourrez trouvez des tablatures (version Guitare Pro)
donc vous n'aurez qu'a allez dans la catégorie de la chanson le groupe et etc...
Donc le lien du site:

http://www.1001tabs.com/

Par contre pour ceux qui ne l'ont pas et bien j'essayerer de trouver des liens pour pouvoir le télécharger sans payer pour l'utiliser (et oui,il y a une version payante) ou alors je posterer des tablatures format normal direct en texte!


Ou sinon en format normal (une bien connus et simple(si on a des grands doigts sinon faites y sans accord)) :
Noir désir un jour en france
---------------------------------------------------------------------------
---------------------------------------------------------------------------
---------------------------------------------------------------------------
---7-8-8-8-8-7-7-7-7-12-12-12-12-7-7-7-7-7-8-8-8-8-7-7-7-7-3-3-3-3-3-3-3-3-
---7-8-8-8-8-7-7-7-7-12-12-12-12-7-7-7-7-7-8-8-8-8-7-7-7-7-3-3-3-3-3-3-3-3-
---5-6-6-6-6-5-5-5-5-10-10-10-10-5-5-5-5-5-6-6-6-6-5-5-5-5-1-1-1-1-1-1-1-1-

---------------------------------------------------------------------------
---------------------------------------------------------------------------
-----------------------------------------------------------------------------7-7-7-7-7-7-7-7-
---7-8-8-8-8-7-7-7-7-12-12-12-12-7-7-7-7-7-8-8-8-8-3-3-3-3-7-7-7-7-7-7-7-7-
---7-8-8-8-8-7-7-7-7-12-12-12-12-7-7-7-7-7-8-8-8-8-3-3-3-3-5-5-5-5-5-5-5-5-
---5-6-6-6-6-5-5-5-5-10-10-10-10-5-5-5-5-5-6-6-6-6-1-1-1-1-----------------


PS: j'autorise que vous postiez un lien chacun avant vos 45 messages

Edit: le lien de 1000 et une tabs n'est plus disponible,je vais essayer de voir si ils ont pas changer d'adresse

_________________
La mort n'est qu'une étape a passer de notre existence tout comme notre passage sur la Terre: ce que l'on appelle "vie"
Vive la Wii!!!


Dernière édition par le Dim 13 Mai - 12:17, édité 1 fois
Revenir en haut Aller en bas
Voir le profil de l'utilisateur http://rpg-story.bbfr.net
xXx-sephiroth-xXx
Modérateur des combats
avatar

Masculin
Nombre de messages : 899
Age : 25
Localisation : je le dis qu'aux intimes ;)
Date d'inscription : 03/05/2007

Profil de combattant
Niveau: 2
PV:
650/650  (650/650)
MP:
250/250  (250/250)

MessageSujet: Re: Les tablatures   Jeu 3 Mai - 14:07

c'est la premiere chanson que j'ai jouer (apres l'incontournable smell like teen spirit mais sa parait presque evident) alors je sens que je vais aimmé se topic
bon si quelqu'un a besion d'une tablature je lui dis direct exception faite si je suis pas connecter ou si je la conné pas sinon je connai un site tres bien

Edit Cloud: Hé!attention au double-post quand même séphirox (j'aime bien ce nom Very Happy )si tu veux rajouter un truc et bien édite ton message
Revenir en haut Aller en bas
Voir le profil de l'utilisateur
Jimmylepitit
Paladin
avatar

Masculin
Nombre de messages : 436
Age : 26
Localisation : 76
Date d'inscription : 25/04/2007

MessageSujet: Re: Les tablatures   Dim 6 Mai - 18:53

Euh je sais pas lire les tablatures lol a vrai dire je sais jouer que quelques minis extraits kon ma appri lol
Revenir en haut Aller en bas
Voir le profil de l'utilisateur http://jeremyfantasy9.free.fr
Cloud
Fondateur
avatar

Masculin
Nombre de messages : 628
Age : 24
Localisation : Près de Clermont-FD
Date d'inscription : 11/04/2007

Profil de combattant
Niveau: 1
PV:
550/550  (550/550)
MP:
250/250  (250/250)

MessageSujet: Re: Les tablatures   Dim 6 Mai - 19:40

bah sa c'est pas grave,si t'en a une,a force de faire sa tu y arrivera surement

_________________
La mort n'est qu'une étape a passer de notre existence tout comme notre passage sur la Terre: ce que l'on appelle "vie"
Vive la Wii!!!
Revenir en haut Aller en bas
Voir le profil de l'utilisateur http://rpg-story.bbfr.net
Magus
Novice
avatar

Masculin
Nombre de messages : 29
Age : 28
Date d'inscription : 14/04/2007

MessageSujet: Re: Les tablatures   Dim 13 Mai - 2:19

Merci Cloud pour avoir intégré une partie guitare Smile

Je cherche actuellement la tablature de Married with children (Oasis) ainsi que celle de Octobre (Francis Carbel). Si vous me les trouvez (précises et sans fautes), je vous serais extrêmement reconnaissant Very Happy
Revenir en haut Aller en bas
Voir le profil de l'utilisateur
xXx-sephiroth-xXx
Modérateur des combats
avatar

Masculin
Nombre de messages : 899
Age : 25
Localisation : je le dis qu'aux intimes ;)
Date d'inscription : 03/05/2007

Profil de combattant
Niveau: 2
PV:
650/650  (650/650)
MP:
250/250  (250/250)

MessageSujet: Re: Les tablatures   Dim 13 Mai - 12:03

pour la tablature il faut lire les lignes comme si c'etait tes corde sauf que celle du haut c'est la plus aigu (tu lis a l'envers en clair) et les nomres se sont les cases.
j'espere que tu y vois plus clair maintenant ^^

_________________
le vrai pouvoir c'est de pouvoir tué mais de ne pas le faire

Revenir en haut Aller en bas
Voir le profil de l'utilisateur
Cloud
Fondateur
avatar

Masculin
Nombre de messages : 628
Age : 24
Localisation : Près de Clermont-FD
Date d'inscription : 11/04/2007

Profil de combattant
Niveau: 1
PV:
550/550  (550/550)
MP:
250/250  (250/250)

MessageSujet: Re: Les tablatures   Dim 13 Mai - 12:19

Magus,je ne sais pas ou trouver tes tablatures,sa aurait était peut-être disponble sur 1000 et une tabs mais le lien est mort donc je vais essayer de voir sur d'autre site!
et pour toi Jimmy,Séphirox a raison,c'est comme si tu mettais les cordes de ta guitare devant tes yeux,en mettant la grosse en bas,et les chiffres sont les cases ou il faut "gratter"

_________________
La mort n'est qu'une étape a passer de notre existence tout comme notre passage sur la Terre: ce que l'on appelle "vie"
Vive la Wii!!!
Revenir en haut Aller en bas
Voir le profil de l'utilisateur http://rpg-story.bbfr.net
xXx-sephiroth-xXx
Modérateur des combats
avatar

Masculin
Nombre de messages : 899
Age : 25
Localisation : je le dis qu'aux intimes ;)
Date d'inscription : 03/05/2007

Profil de combattant
Niveau: 2
PV:
650/650  (650/650)
MP:
250/250  (250/250)

MessageSujet: Re: Les tablatures   Dim 13 Mai - 12:45


_________________
le vrai pouvoir c'est de pouvoir tué mais de ne pas le faire

Revenir en haut Aller en bas
Voir le profil de l'utilisateur
Cloud
Fondateur
avatar

Masculin
Nombre de messages : 628
Age : 24
Localisation : Près de Clermont-FD
Date d'inscription : 11/04/2007

Profil de combattant
Niveau: 1
PV:
550/550  (550/550)
MP:
250/250  (250/250)

MessageSujet: Re: Les tablatures   Dim 13 Mai - 12:48

interressant ce sit dis moi,dommage qu'il soit Anglais mais je vais quand même y faire un tour Wink

_________________
La mort n'est qu'une étape a passer de notre existence tout comme notre passage sur la Terre: ce que l'on appelle "vie"
Vive la Wii!!!
Revenir en haut Aller en bas
Voir le profil de l'utilisateur http://rpg-story.bbfr.net
xXx-sephiroth-xXx
Modérateur des combats
avatar

Masculin
Nombre de messages : 899
Age : 25
Localisation : je le dis qu'aux intimes ;)
Date d'inscription : 03/05/2007

Profil de combattant
Niveau: 2
PV:
650/650  (650/650)
MP:
250/250  (250/250)

MessageSujet: Re: Les tablatures   Dim 13 Mai - 12:50

tu va avoir 13ans sa devrait pas etre un probleme (j'dis sa mais j'ai 15 de moyenne en anglais moi ^^)

_________________
le vrai pouvoir c'est de pouvoir tué mais de ne pas le faire

Revenir en haut Aller en bas
Voir le profil de l'utilisateur
xXx-sephiroth-xXx
Modérateur des combats
avatar

Masculin
Nombre de messages : 899
Age : 25
Localisation : je le dis qu'aux intimes ;)
Date d'inscription : 03/05/2007

Profil de combattant
Niveau: 2
PV:
650/650  (650/650)
MP:
250/250  (250/250)

MessageSujet: Re: Les tablatures   Sam 22 Sep - 16:16

desoler pour le double-post mais je vais rajouter les tabs de l'OST de beck,enfin celle que je sais jouer:

Hit in USA (opening)

C5 G5 F5 G5
e------------------------------------
B------------------------------------
G-5----------------------------------
D-5---5-5----3-3-3—--3/5---5---------
A-3---5-5----3-3-3—--3/5---5---------
E-----3-3----1-1-1—--1/3---3---------

Fill1

A5 Csus4 C
e------------------------------------
B------------6p5-5-6-5---------------
G------------5---5-5-5---------------
D-(5)/7--7---5---5-5-5---------------
A-(5)/7--7---------------------------
E-(3)/5--5---------------------------

Verse

|----Palm Mute----|

C5 G5 F5 G5
e------------------------------------
B------------------------------------
G-5555-------------------------------
D-5555--5555--3333—---3/5---5--------
A-3333--5555--3333—---3/5---5--------
E-------3333--1111—---1/5---3--------

Fill2

-1st+2nd--------------only--2nd

G#5 A#5 C5 G#5
e------------------------------------
B------------------------------------
G------------------------------------
D--6-----8-----|------10/x----6------
A--6-----8-----|------10/x----6------
E--4-----6-----|------8/-x----4------

Bridge

-------------------------[-1st][-2nd]

D#5 D#5/D C5orD#/C G#5 A#5 G
e------------------------------------
B------------------------------------
G-8----8-----5-(8 )-------------------
D-8----8-----5-(8 )----6--|-8--|-5----
A-6----5-----3--------6--|-8--|-5----
E--------------(8 )----4--|-6--|-3----

Chorus 1/2 tone up

Same pattern as Chorus

C#5 G#5 F#5 G#5

Fill3

A5 H5 C#5 A#m
e------------------6-----------------
B------------------6-----------------
G------------6-----6-----------------
D-7----9-----6-----8-----------------
A-7----9-----4----(8 )----------------
E-5----7----------(6)----------------

elle est simple


Follow me:

1 1 1/2 1/2 1/2
G Em Hm Hm(7) C
e---3-----0------2------2--------0---
B---0-----0------3------3--------1---
G---0-----0------4------2h4------0---
D---0-----2------4------4--------2---
A---x-----2-----2-------2-------3----
E--3-----0---------------------------

1/4 1/4 1/2 1/2 1/2
Em H Em Em/D# Em/D
e----------------0------0------0-----
B--5------4------0------0------0-----
G--4(*)---4------0------0------0-----
D--5------4-----2------1------0------
A------------------------------------
E------------------------------------

1/2 1/2 1/2
A7 (sus4) C D
e--0-0-0-0-0------0------------------
B--2-2-3-2-2------1-------3----------
G--0-0-0-0-0------0-------2(*)-------
D--2-2-2-2-2------2-----0------------
A--0-0-0-0-0-----3-------------------
E------------------------------------

The second time the chords with (*) were altered a bit

Em is A° and D is D7
e-------5---------------2-2----------
B-------4---------------1-1----------
G-------5---------------2-2----------
D-------4---------------0-0----------
A------------------------------------
E------------------------------------

elle est moin simple


I've a feeling:

_____A_______D

e---0--0-----2-2-2-2---2-2-2-2-2
B---2--2-----3-3-3-3---3-3-3-3-3
G---2--2-----2-2-2-2---2-2-2-2-2
D---2--2-----0-0-0-0---0-0-0-0-0
A---0--0------------------------
E-------------------------------

Bridge 1

___A______E________G________D

e--0------0--------3---------2---------
B--2------0--------3---------3-mute----
G--2-(1T)-1--------0---------2-(24T)--
D--2------2-(14T)-0-(14T)--0---------
A--0------2--------2-------------------
E—--------0--------3-------------------

(140, 212, 257, 341, 439)


Bridge 2

E(1T)_____G(1T)_____D(1T)+(14)___Break(1T+34T)

e--------------------------2-x-------
B--------------------------3-x-------
G--------------------------2-x-------
D--------------------------0-x-------
A------------------------------------
E—-----------------------------------

elle est tres facile


Brainstorm:

e|-----------------------|-----------------------|
B|-----------------------|-----------------------|
G|7(7)-7(7)-7(7)-12(12)10|7(7)-7(7)-7(7)-5-7-----|
D|7(7)-7(7)-7(7)-12(12)10|7(7)-7(7)-7(7)-5-7-----|
A|5(5)-5(5)-5(5)-10(10)8-|5(5)-5(5)-5(5)-3-5-----|
E|-----------------------|-----------------------|

je n'ai trouver que l'intro mais je ne trouve aucun site disant la suite et je ne trouve pas a l'oreille (j'y travaille)

_________________
le vrai pouvoir c'est de pouvoir tué mais de ne pas le faire

Revenir en haut Aller en bas
Voir le profil de l'utilisateur
Contenu sponsorisé




MessageSujet: Re: Les tablatures   

Revenir en haut Aller en bas
 
Les tablatures
Revenir en haut 
Page 1 sur 1

Permission de ce forum:Vous ne pouvez pas répondre aux sujets dans ce forum
RPG-Story :: Divers :: Loisirs :: Session guitare-
Sauter vers: